ISO-10303-21;
HEADER;
FILE_DESCRIPTION (( 'STEP AP214' ),
    '1' );
FILE_NAME ('2046841.stp',
    '2016-07-29T08:16:41',
    ( '' ),
    ( '' ),
    'SwSTEP 2.0',
    'SolidWorks 2014',
    '' );
FILE_SCHEMA (( 'AUTOMOTIVE_DESIGN' ));
ENDSEC;

DATA;
#1 = UNCERTAINTY_MEASURE_WITH_UNIT (LENGTH_MEASURE( 1.000000000000000100E-005 ), #100, 'distance_accuracy_value', 'NONE');
#2 = PRESENTATION_LAYER_ASSIGNMENT (  '', '', ( #213 ) ) ;
#3 = FILL_AREA_STYLE ('',( #145 ) ) ;
#4 = DIRECTION ( 'NONE',  ( 0.0000000000000000000, 0.0000000000000000000, 1.000000000000000000 ) ) ;
#5 = SURFACE_SIDE_STYLE ('',( #119 ) ) ;
#6 =( NAMED_UNIT ( * ) PLANE_ANGLE_UNIT ( ) SI_UNIT ( $, .RADIAN. ) );
#7 = AXIS2_PLACEMENT_3D ( 'NONE', #80, #62, #36 ) ;
#8 = DIRECTION ( 'NONE',  ( 0.0000000000000000000, 0.0000000000000000000, 1.000000000000000000 ) ) ;
#9 = UNCERTAINTY_MEASURE_WITH_UNIT (LENGTH_MEASURE( 1.000000000000000100E-005 ), #75, 'distance_accuracy_value', 'NONE');
#10 = PRODUCT_CONTEXT ( 'NONE', #16, 'mechanical' ) ;
#11 = PLANE ( 'NONE',  #31 ) ;
#12 = AXIS2_PLACEMENT_3D ( 'NONE', #118, #198, #95 ) ;
#13 = CARTESIAN_POINT ( 'NONE',  ( 0.0000000000000000000, 0.0000000000000000000, -3000.000000000000000 ) ) ;
#14 = DIRECTION ( 'NONE',  ( 0.0000000000000000000, 0.0000000000000000000, 1.000000000000000000 ) ) ;
#15 = AXIS2_PLACEMENT_3D ( 'NONE', #194, #24, #201 ) ;
#16 = APPLICATION_CONTEXT ( 'automotive_design' ) ;
#17 = CARTESIAN_POINT ( 'NONE',  ( 0.0000000000000000000, 0.0000000000000000000, 0.0000000000000000000 ) ) ;
#18 = APPLICATION_PROTOCOL_DEFINITION ( 'draft international standard', 'automotive_design', 1998, #19 ) ;
#19 = APPLICATION_CONTEXT ( 'automotive_design' ) ;
#20 = EDGE_CURVE ( 'NONE', #171, #199, #125, .T. ) ;
#21 = PRODUCT_DEFINITION_SHAPE ( 'NONE', 'NONE',  #164 ) ;
#22 = MECHANICAL_DESIGN_GEOMETRIC_PRESENTATION_REPRESENTATION (  '', ( #205 ), #127 ) ;
#23 = SURFACE_STYLE_USAGE ( .BOTH. , #25 ) ;
#24 = DIRECTION ( 'NONE',  ( 0.0000000000000000000, 0.0000000000000000000, 1.000000000000000000 ) ) ;
#25 = SURFACE_SIDE_STYLE ('',( #90 ) ) ;
#26 =( NAMED_UNIT ( * ) PLANE_ANGLE_UNIT ( ) SI_UNIT ( $, .RADIAN. ) );
#27 = CARTESIAN_POINT ( 'NONE',  ( 9.000000000000001800, 0.0000000000000000000, -3000.000000000000000 ) ) ;
#28 = APPLICATION_PROTOCOL_DEFINITION ( 'draft international standard', 'automotive_design', 1998, #16 ) ;
#29 = AXIS2_PLACEMENT_3D ( 'NONE', #59, #66, #214 ) ;
#30 = ADVANCED_FACE ( 'NONE', ( #69 ), #123, .T. ) ;
#31 = AXIS2_PLACEMENT_3D ( 'NONE', #60, #113, #35 ) ;
#32 = FILL_AREA_STYLE ('',( #206 ) ) ;
#33 = AXIS2_PLACEMENT_3D ( 'NONE', #189, #8, #184 ) ;
#34 = DIRECTION ( 'NONE',  ( 0.0000000000000000000, 0.0000000000000000000, 1.000000000000000000 ) ) ;
#35 = DIRECTION ( 'NONE',  ( 1.000000000000000000, 0.0000000000000000000, -0.0000000000000000000 ) ) ;
#36 = DIRECTION ( 'NONE',  ( 1.000000000000000000, 0.0000000000000000000, -0.0000000000000000000 ) ) ;
#37 =( NAMED_UNIT ( * ) SI_UNIT ( $, .STERADIAN. ) SOLID_ANGLE_UNIT ( ) );
#38 = ORIENTED_EDGE ( 'NONE', *, *, #76, .F. ) ;
#39 = ORIENTED_EDGE ( 'NONE', *, *, #192, .T. ) ;
#40 = DIRECTION ( 'NONE',  ( 0.0000000000000000000, 0.0000000000000000000, 1.000000000000000000 ) ) ;
#41 = ADVANCED_FACE ( 'NONE', ( #61, #67 ), #11, .F. ) ;
#42 = EDGE_CURVE ( 'NONE', #152, #143, #121, .T. ) ;
#43 =( NAMED_UNIT ( * ) PLANE_ANGLE_UNIT ( ) SI_UNIT ( $, .RADIAN. ) );
#44 =( LENGTH_UNIT ( ) NAMED_UNIT ( * ) SI_UNIT ( .MILLI., .METRE. ) );
#45 = AXIS2_PLACEMENT_3D ( 'NONE', #112, #4, #131 ) ;
#46 = CARTESIAN_POINT ( 'NONE',  ( 0.0000000000000000000, 0.0000000000000000000, -3000.000000000000000 ) ) ;
#47 = CARTESIAN_POINT ( 'NONE',  ( 0.0000000000000000000, 0.0000000000000000000, 0.0000000000000000000 ) ) ;
#48 = PRODUCT_RELATED_PRODUCT_CATEGORY ( 'part', '', ( #53 ) ) ;
#49 = PRESENTATION_LAYER_ASSIGNMENT (  '', '', ( #205 ) ) ;
#50 = CARTESIAN_POINT ( 'NONE',  ( -9.000000000000001800, 1.102182119232617900E-015, 0.0000000000000000000 ) ) ;
#51 = EDGE_CURVE ( 'NONE', #152, #153, #58, .T. ) ;
#52 = CARTESIAN_POINT ( 'NONE',  ( 0.0000000000000000000, 0.0000000000000000000, 0.0000000000000000000 ) ) ;
#53 = PRODUCT ( '2046841', '2046841', '', ( #10 ) ) ;
#54 = CARTESIAN_POINT ( 'NONE',  ( -9.000000000000001800, 1.102182119232617900E-015, -3000.000000000000000 ) ) ;
#55 = MANIFOLD_SOLID_BREP ( 'Rohr St', #105 ) ;
#56 =( NAMED_UNIT ( * ) SI_UNIT ( $, .STERADIAN. ) SOLID_ANGLE_UNIT ( ) );
#57 = CARTESIAN_POINT ( 'NONE',  ( 0.0000000000000000000, 0.0000000000000000000, -3000.000000000000000 ) ) ;
#58 = CIRCLE ( 'NONE', #111, 10.00000000000000000 ) ;
#59 = CARTESIAN_POINT ( 'NONE',  ( 0.0000000000000000000, 0.0000000000000000000, -3000.000000000000000 ) ) ;
#60 = CARTESIAN_POINT ( 'NONE',  ( 0.0000000000000000000, 0.0000000000000000000, -3000.000000000000000 ) ) ;
#61 = FACE_BOUND ( 'NONE', #166, .T. ) ;
#62 = DIRECTION ( 'NONE',  ( 0.0000000000000000000, 0.0000000000000000000, 1.000000000000000000 ) ) ;
#63 = UNCERTAINTY_MEASURE_WITH_UNIT (LENGTH_MEASURE( 1.000000000000000100E-005 ), #44, 'distance_accuracy_value', 'NONE');
#64 = ADVANCED_FACE ( 'NONE', ( #116 ), #99, .F. ) ;
#65 = DIRECTION ( 'NONE',  ( 1.000000000000000000, 0.0000000000000000000, 0.0000000000000000000 ) ) ;
#66 = DIRECTION ( 'NONE',  ( 0.0000000000000000000, 0.0000000000000000000, 1.000000000000000000 ) ) ;
#67 = FACE_OUTER_BOUND ( 'NONE', #176, .T. ) ;
#68 =( GEOMETRIC_REPRESENTATION_CONTEXT ( 3 ) GLOBAL_UNCERTAINTY_ASSIGNED_CONTEXT ( ( #63 ) ) GLOBAL_UNIT_ASSIGNED_CONTEXT ( ( #44, #43, #37 ) ) REPRESENTATION_CONTEXT ( 'NONE', 'WORKASPACE' ) );
#69 = FACE_OUTER_BOUND ( 'NONE', #197, .T. ) ;
#70 = AXIS2_PLACEMENT_3D ( 'NONE', #203, #115, #182 ) ;
#71 = DIRECTION ( 'NONE',  ( 1.000000000000000000, 0.0000000000000000000, 0.0000000000000000000 ) ) ;
#72 = PRESENTATION_STYLE_ASSIGNMENT (( #23 ) ) ;
#73 = COLOUR_RGB ( '',0.7529411764705882200, 0.7529411764705882200, 0.7529411764705882200 ) ;
#74 = EDGE_CURVE ( 'NONE', #162, #143, #101, .T. ) ;
#75 =( LENGTH_UNIT ( ) NAMED_UNIT ( * ) SI_UNIT ( .MILLI., .METRE. ) );
#76 = EDGE_CURVE ( 'NONE', #143, #162, #104, .T. ) ;
#77 = EDGE_CURVE ( 'NONE', #171, #139, #103, .T. ) ;
#78 = VECTOR ( 'NONE', #207, 1000.000000000000000 ) ;
#79 = CYLINDRICAL_SURFACE ( 'NONE', #87, 10.00000000000000000 ) ;
#80 = CARTESIAN_POINT ( 'NONE',  ( 0.0000000000000000000, 0.0000000000000000000, 0.0000000000000000000 ) ) ;
#81 = FACE_OUTER_BOUND ( 'NONE', #140, .T. ) ;
#82 = SHAPE_DEFINITION_REPRESENTATION ( #21, #102 ) ;
#83 = FACE_OUTER_BOUND ( 'NONE', #185, .T. ) ;
#84 = CYLINDRICAL_SURFACE ( 'NONE', #12, 9.000000000000001800 ) ;
#85 = CIRCLE ( 'NONE', #29, 9.000000000000001800 ) ;
#86 = DIRECTION ( 'NONE',  ( 1.000000000000000000, 0.0000000000000000000, 0.0000000000000000000 ) ) ;
#87 = AXIS2_PLACEMENT_3D ( 'NONE', #57, #34, #86 ) ;
#88 = EDGE_CURVE ( 'NONE', #153, #152, #106, .T. ) ;
#89 = FACE_BOUND ( 'NONE', #146, .T. ) ;
#90 = SURFACE_STYLE_FILL_AREA ( #32 ) ;
#91 = FACE_OUTER_BOUND ( 'NONE', #132, .T. ) ;
#92 = VECTOR ( 'NONE', #130, 1000.000000000000000 ) ;
#93 = PLANE ( 'NONE',  #7 ) ;
#94 = CIRCLE ( 'NONE', #45, 9.000000000000001800 ) ;
#95 = DIRECTION ( 'NONE',  ( 1.000000000000000000, 0.0000000000000000000, 0.0000000000000000000 ) ) ;
#96 = DIRECTION ( 'NONE',  ( 0.0000000000000000000, 0.0000000000000000000, 1.000000000000000000 ) ) ;
#97 = LINE ( 'NONE', #27, #78 ) ;
#98 = LINE ( 'NONE', #193, #92 ) ;
#99 = CYLINDRICAL_SURFACE ( 'NONE', #70, 9.000000000000001800 ) ;
#100 =( LENGTH_UNIT ( ) NAMED_UNIT ( * ) SI_UNIT ( .MILLI., .METRE. ) );
#101 = CIRCLE ( 'NONE', #208, 10.00000000000000000 ) ;
#102 = ADVANCED_BREP_SHAPE_REPRESENTATION ( '2046841', ( #55, #196 ), #68 ) ;
#103 = CIRCLE ( 'NONE', #33, 9.000000000000001800 ) ;
#104 = CIRCLE ( 'NONE', #109, 10.00000000000000000 ) ;
#105 = CLOSED_SHELL ( 'NONE', ( #64, #204, #30, #41, #195, #190 ) ) ;
#106 = CIRCLE ( 'NONE', #128, 10.00000000000000000 ) ;
#107 = DIRECTION ( 'NONE',  ( 0.0000000000000000000, 0.0000000000000000000, 1.000000000000000000 ) ) ;
#108 = DIRECTION ( 'NONE',  ( 0.0000000000000000000, 0.0000000000000000000, 1.000000000000000000 ) ) ;
#109 = AXIS2_PLACEMENT_3D ( 'NONE', #211, #40, #202 ) ;
#110 = SURFACE_STYLE_USAGE ( .BOTH. , #5 ) ;
#111 = AXIS2_PLACEMENT_3D ( 'NONE', #13, #108, #200 ) ;
#112 = CARTESIAN_POINT ( 'NONE',  ( 0.0000000000000000000, 0.0000000000000000000, 0.0000000000000000000 ) ) ;
#113 = DIRECTION ( 'NONE',  ( 0.0000000000000000000, 0.0000000000000000000, 1.000000000000000000 ) ) ;
#114 = PRESENTATION_STYLE_ASSIGNMENT (( #110 ) ) ;
#115 = DIRECTION ( 'NONE',  ( 0.0000000000000000000, 0.0000000000000000000, 1.000000000000000000 ) ) ;
#116 = FACE_OUTER_BOUND ( 'NONE', #147, .T. ) ;
#117 = PRODUCT_DEFINITION_FORMATION_WITH_SPECIFIED_SOURCE ( 'ANY', '', #53, .NOT_KNOWN. ) ;
#118 = CARTESIAN_POINT ( 'NONE',  ( 0.0000000000000000000, 0.0000000000000000000, -3000.000000000000000 ) ) ;
#119 = SURFACE_STYLE_FILL_AREA ( #3 ) ;
#120 = EDGE_CURVE ( 'NONE', #139, #137, #97, .T. ) ;
#121 = LINE ( 'NONE', #144, #126 ) ;
#122 = COLOUR_RGB ( '',0.7529411764705882200, 0.7529411764705882200, 0.7529411764705882200 ) ;
#123 = CYLINDRICAL_SURFACE ( 'NONE', #15, 10.00000000000000000 ) ;
#124 = VECTOR ( 'NONE', #96, 1000.000000000000000 ) ;
#125 = LINE ( 'NONE', #54, #124 ) ;
#126 = VECTOR ( 'NONE', #170, 1000.000000000000000 ) ;
#127 =( GEOMETRIC_REPRESENTATION_CONTEXT ( 3 ) GLOBAL_UNCERTAINTY_ASSIGNED_CONTEXT ( ( #9 ) ) GLOBAL_UNIT_ASSIGNED_CONTEXT ( ( #75, #6, #56 ) ) REPRESENTATION_CONTEXT ( 'NONE', 'WORKASPACE' ) );
#128 = AXIS2_PLACEMENT_3D ( 'NONE', #46, #141, #65 ) ;
#129 = EDGE_CURVE ( 'NONE', #153, #162, #98, .T. ) ;
#130 = DIRECTION ( 'NONE',  ( 0.0000000000000000000, 0.0000000000000000000, 1.000000000000000000 ) ) ;
#131 = DIRECTION ( 'NONE',  ( 1.000000000000000000, 0.0000000000000000000, 0.0000000000000000000 ) ) ;
#132 = EDGE_LOOP ( 'NONE', ( #180, #142, #154, #151 ) ) ;
#133 = ORIENTED_EDGE ( 'NONE', *, *, #120, .F. ) ;
#134 = ORIENTED_EDGE ( 'NONE', *, *, #42, .F. ) ;
#135 = ORIENTED_EDGE ( 'NONE', *, *, #129, .F. ) ;
#136 = CARTESIAN_POINT ( 'NONE',  ( 9.000000000000001800, 0.0000000000000000000, -3000.000000000000000 ) ) ;
#137 = VERTEX_POINT ( 'NONE', #169 ) ;
#138 = ORIENTED_EDGE ( 'NONE', *, *, #186, .F. ) ;
#139 = VERTEX_POINT ( 'NONE', #136 ) ;
#140 = EDGE_LOOP ( 'NONE', ( #160, #188, #183, #135 ) ) ;
#141 = DIRECTION ( 'NONE',  ( 0.0000000000000000000, 0.0000000000000000000, 1.000000000000000000 ) ) ;
#142 = ORIENTED_EDGE ( 'NONE', *, *, #192, .F. ) ;
#143 = VERTEX_POINT ( 'NONE', #174 ) ;
#144 = CARTESIAN_POINT ( 'NONE',  ( -10.00000000000000000, 1.224646799147353300E-015, -3000.000000000000000 ) ) ;
#145 = FILL_AREA_STYLE_COLOUR ( '', #122 ) ;
#146 = EDGE_LOOP ( 'NONE', ( #178, #138 ) ) ;
#147 = EDGE_LOOP ( 'NONE', ( #150, #172, #177, #133 ) ) ;
#148 = CARTESIAN_POINT ( 'NONE',  ( 10.00000000000000000, 0.0000000000000000000, 0.0000000000000000000 ) ) ;
#149 = ORIENTED_EDGE ( 'NONE', *, *, #88, .F. ) ;
#150 = ORIENTED_EDGE ( 'NONE', *, *, #77, .F. ) ;
#151 = ORIENTED_EDGE ( 'NONE', *, *, #187, .T. ) ;
#152 = VERTEX_POINT ( 'NONE', #156 ) ;
#153 = VERTEX_POINT ( 'NONE', #157 ) ;
#154 = ORIENTED_EDGE ( 'NONE', *, *, #120, .T. ) ;
#155 = MECHANICAL_DESIGN_GEOMETRIC_PRESENTATION_REPRESENTATION (  '', ( #213 ), #175 ) ;
#156 = CARTESIAN_POINT ( 'NONE',  ( -10.00000000000000000, 1.224646799147353300E-015, -3000.000000000000000 ) ) ;
#157 = CARTESIAN_POINT ( 'NONE',  ( 10.00000000000000000, 0.0000000000000000000, -3000.000000000000000 ) ) ;
#158 = CIRCLE ( 'NONE', #168, 9.000000000000001800 ) ;
#159 = ORIENTED_EDGE ( 'NONE', *, *, #51, .T. ) ;
#160 = ORIENTED_EDGE ( 'NONE', *, *, #88, .T. ) ;
#161 = ORIENTED_EDGE ( 'NONE', *, *, #129, .T. ) ;
#162 = VERTEX_POINT ( 'NONE', #148 ) ;
#163 = ORIENTED_EDGE ( 'NONE', *, *, #77, .T. ) ;
#164 = PRODUCT_DEFINITION ( 'UNKNOWN', '', #117, #181 ) ;
#165 = CARTESIAN_POINT ( 'NONE',  ( -9.000000000000001800, 1.102182119232617900E-015, -3000.000000000000000 ) ) ;
#166 = EDGE_LOOP ( 'NONE', ( #39, #163 ) ) ;
#167 = ORIENTED_EDGE ( 'NONE', *, *, #51, .F. ) ;
#168 = AXIS2_PLACEMENT_3D ( 'NONE', #52, #107, #71 ) ;
#169 = CARTESIAN_POINT ( 'NONE',  ( 9.000000000000001800, 0.0000000000000000000, 0.0000000000000000000 ) ) ;
#170 = DIRECTION ( 'NONE',  ( 0.0000000000000000000, 0.0000000000000000000, 1.000000000000000000 ) ) ;
#171 = VERTEX_POINT ( 'NONE', #165 ) ;
#172 = ORIENTED_EDGE ( 'NONE', *, *, #20, .T. ) ;
#173 = ORIENTED_EDGE ( 'NONE', *, *, #76, .T. ) ;
#174 = CARTESIAN_POINT ( 'NONE',  ( -10.00000000000000000, 1.224646799147353300E-015, 0.0000000000000000000 ) ) ;
#175 =( GEOMETRIC_REPRESENTATION_CONTEXT ( 3 ) GLOBAL_UNCERTAINTY_ASSIGNED_CONTEXT ( ( #1 ) ) GLOBAL_UNIT_ASSIGNED_CONTEXT ( ( #100, #26, #179 ) ) REPRESENTATION_CONTEXT ( 'NONE', 'WORKASPACE' ) );
#176 = EDGE_LOOP ( 'NONE', ( #149, #167 ) ) ;
#177 = ORIENTED_EDGE ( 'NONE', *, *, #186, .T. ) ;
#178 = ORIENTED_EDGE ( 'NONE', *, *, #187, .F. ) ;
#179 =( NAMED_UNIT ( * ) SI_UNIT ( $, .STERADIAN. ) SOLID_ANGLE_UNIT ( ) );
#180 = ORIENTED_EDGE ( 'NONE', *, *, #20, .F. ) ;
#181 = PRODUCT_DEFINITION_CONTEXT ( 'detailed design', #19, 'design' ) ;
#182 = DIRECTION ( 'NONE',  ( 1.000000000000000000, 0.0000000000000000000, 0.0000000000000000000 ) ) ;
#183 = ORIENTED_EDGE ( 'NONE', *, *, #74, .F. ) ;
#184 = DIRECTION ( 'NONE',  ( 1.000000000000000000, 0.0000000000000000000, 0.0000000000000000000 ) ) ;
#185 = EDGE_LOOP ( 'NONE', ( #191, #173 ) ) ;
#186 = EDGE_CURVE ( 'NONE', #199, #137, #94, .T. ) ;
#187 = EDGE_CURVE ( 'NONE', #137, #199, #158, .T. ) ;
#188 = ORIENTED_EDGE ( 'NONE', *, *, #42, .T. ) ;
#189 = CARTESIAN_POINT ( 'NONE',  ( 0.0000000000000000000, 0.0000000000000000000, -3000.000000000000000 ) ) ;
#190 = ADVANCED_FACE ( 'NONE', ( #91 ), #84, .F. ) ;
#191 = ORIENTED_EDGE ( 'NONE', *, *, #74, .T. ) ;
#192 = EDGE_CURVE ( 'NONE', #139, #171, #85, .T. ) ;
#193 = CARTESIAN_POINT ( 'NONE',  ( 10.00000000000000000, 0.0000000000000000000, -3000.000000000000000 ) ) ;
#194 = CARTESIAN_POINT ( 'NONE',  ( 0.0000000000000000000, 0.0000000000000000000, -3000.000000000000000 ) ) ;
#195 = ADVANCED_FACE ( 'NONE', ( #89, #83 ), #93, .T. ) ;
#196 = AXIS2_PLACEMENT_3D ( 'NONE', #47, #14, #210 ) ;
#197 = EDGE_LOOP ( 'NONE', ( #134, #159, #161, #38 ) ) ;
#198 = DIRECTION ( 'NONE',  ( 0.0000000000000000000, 0.0000000000000000000, 1.000000000000000000 ) ) ;
#199 = VERTEX_POINT ( 'NONE', #50 ) ;
#200 = DIRECTION ( 'NONE',  ( 1.000000000000000000, 0.0000000000000000000, 0.0000000000000000000 ) ) ;
#201 = DIRECTION ( 'NONE',  ( 1.000000000000000000, 0.0000000000000000000, 0.0000000000000000000 ) ) ;
#202 = DIRECTION ( 'NONE',  ( 1.000000000000000000, 0.0000000000000000000, 0.0000000000000000000 ) ) ;
#203 = CARTESIAN_POINT ( 'NONE',  ( 0.0000000000000000000, 0.0000000000000000000, -3000.000000000000000 ) ) ;
#204 = ADVANCED_FACE ( 'NONE', ( #81 ), #79, .T. ) ;
#205 = STYLED_ITEM ( 'NONE', ( #114 ), #55 ) ;
#206 = FILL_AREA_STYLE_COLOUR ( '', #73 ) ;
#207 = DIRECTION ( 'NONE',  ( 0.0000000000000000000, 0.0000000000000000000, 1.000000000000000000 ) ) ;
#208 = AXIS2_PLACEMENT_3D ( 'NONE', #17, #212, #209 ) ;
#209 = DIRECTION ( 'NONE',  ( 1.000000000000000000, 0.0000000000000000000, 0.0000000000000000000 ) ) ;
#210 = DIRECTION ( 'NONE',  ( 1.000000000000000000, 0.0000000000000000000, 0.0000000000000000000 ) ) ;
#211 = CARTESIAN_POINT ( 'NONE',  ( 0.0000000000000000000, 0.0000000000000000000, 0.0000000000000000000 ) ) ;
#212 = DIRECTION ( 'NONE',  ( 0.0000000000000000000, 0.0000000000000000000, 1.000000000000000000 ) ) ;
#213 = STYLED_ITEM ( 'NONE', ( #72 ), #102 ) ;
#214 = DIRECTION ( 'NONE',  ( 1.000000000000000000, 0.0000000000000000000, 0.0000000000000000000 ) ) ;
ENDSEC;
END-ISO-10303-21;
